> Escala pentatónica mayor


Extensión de la escala pentatónica mayor.
Podeis descargarla de la sección documentos... Cojonuda para tocar blues y pq no? algunos solos metaleros.























Aún así...
e---------------------------8-11------------------3-6------
b----------------------8-11-------------------4-6----------
g-----------------8-10--------------------3-5--------------
D------------8-10---------------------3-5------------------
A-------8-10----------------------3-6----------------------
E--8-11----------------------------------------------------

Modificada ( a mí ésta me gusta más)
e------------------------------8-11-------------------3-6--
b-------------------------8-11------------------4-6-7------
g-----------------8-10-11-------------------3-5------------
D------------8-10---------------------3-4-5----------------
A-------8-9-10--------------------3-6----------------------
E--8-11------------------------------------------------------





Publicar un comentario