> Kirk Hammet Style

/>


En Guitarmasterclass.net he encontrado este lick "cojonudo" al estilo del guitarrista de Metallica Kirk Hammet.

Practicando éste tipo de punteos ganarás velocidad poco a poco de una manera más entretenida que con los dichosos ejercicios de entrenamiento que tanto nos aburren.

Es una escala pentatónica menor en E y su dibujo es éste:

e|-15p12----12---------------------------------|
b|-------15----15p12-15p12----12---------------|
g|-------------------------14----14p12-14p12---|
d|---------------------------------------------|
a|---------------------------------------------|
e|---------------------------------------------|

e|---------------------------------------------
b|---------------------------------------------|
g|---12----------------------------------------|
d|14----14p12-14p12----12----------------------|
a|------------------14----14p12-14p12----12----|
e|------------------------------------15----15\|

El video lo podeis encontrar en
http://www.guitarmasterclass.net/Free_lessons.php
Publicar un comentario